Saltar al contenido

Sweet Home Alabama: TAB y Acordes

Sweet Home Alabama es una canción perfecta para principiantes de guitarra. Solo tiene 3 acordes (más uno extras que sólo se toca una vez) y una intro muy interesante (tablatura abajo).

¿Encontrarás el acorde oculto?

Cómo tocar Sweet Home Alabama en Guitarra

💡 Consejo: si la intro te es muy difícil, olvídate de ella, cuando cojas más soltura con la guitarra te resultará más fácil:

sweet home alabama acordes y tab

[Intro]

e|-----------------------------|-------------------------------|
B|-------3---------------3-----|-------------------------------|
G|---------2---------------0---|--------0--0----------------2p0|
D|-0--0------0---------------0-|-------------------0-2p0-------|
A|-------------3(0)3-----------|--------------0h2--------2-----|
E|-----------------------------|-3(0)3-------------------------|

e|-----------------------------|-------------------------------|
B|-------3---------------3-----|-------------------------------|
G|---------2---------------0---|--------0--0--2p0-0-4p0-----5b-|
D|-0--0------0---------------0-|-------------------------0-----|
A|-------------3(0)3-----------|-------------------------------|
E|-----------------------------|3-x-3--------------------------|

e|-----------------------------|-------------------------------|
B|-------3--------------3----3-|-------3----3------------------|
G|-------2--------------0----0-|-------0----0-------------2p0--|
D|-0--0-------x--------------2-|-------0----0-----0-2p0--------|
A|---------------3(0)3---------|--------------0h2-------2------|
E|-----------------------------|3-x-3----3---------------------|

e|-----------------------------|-------------------------------|
B|-------3--------------3----3-|-------3-----------------------|
G|-------2--------------0----0-|-------0------------0----------|
D|-0--0-------x--------------2-|-------0----------0------------|
A|---------------3(0)3---------|--------------1/2--------------|
E|-----------------------------|3-x-3--------------------------|

[Verso 1]

                             
Big wheels keep on turning
                                        
Carry me home to see my kin.
                                     
Singing songs about the southland
                                    
I miss’ole’ ‘bamy once again (and I think it’s a sin)

[Instrumental]

         

                                                   
Well, I heard Mister Young sing about her
                                              
Well, I heard ole Neil put her down.
                                              
Well, I hope Neil Young will remember,
                                                   
A southern man don’t need him around anyhow

[Estribillo]

                    
Sweet home Alabama,
                                  
Where the skies are so blue,
                    
Sweet home Alabama,
                                       
Lord, I’m coming home to you.

[Instrumental]

         

[Verso 2]

                                                                  
In Birmingham they love the Govenor Boo hoo hoo !
                                               
Now we all did what we could do.
                                                    
Now Watergate does not bother me.
                                              
Does your conscience bother you? (tell the truth)

[Estribillo]

                    
Sweet home Alabama,
                                  
Where the skies are so blue,
                    
Sweet home Alabama,
                                       
Lord, I’m coming home to you

[Instrumental]



Ah Ah Ah Alabama x4

         

[Verso 3]

                                                   
Now Muscle Shoals has got the Swampers
                                                       
And they’ve been known to pick a tune or two
                                       
Lord they get me off so much
                                                      
They pick me up when I’m feeling blue (Now how about you?)

[Estribillo]

                    
Sweet home Alabama,
                                  
Where the skies are so blue,
                    
Sweet home Alabama,
                                       
Lord, I’m coming home to you.

                                       
Sweet home Alabama, (oh sweet home)
                                  
Where the skies are so blue, (and it’s true)
                    
Sweet home Alabama,
                                       
Lord, I’m coming home to you.

[Fin]

   

Análisis de Sweet Home Alabama

Sweet Home Alabama es una canción de rock sureño compuesta por la banda Lynyrd Skynyrd en 1973.

sweet home alabama tab guitarra

Esta canción fue escrita como respuesta a las canciones de Southern Man y Alabama, de Neil Young, en las que criticaba a los estados del sur y su presunto racismo.

I hope Neil Young will remember
A southern man don’t need him around anyhow

En cualquier caso, la relación entre la banda y Neil Young era bastante buena. Tanto era así que el mismo Neil Young la tocó en directo cuando les rindió tributo tras el accidente de avión que se llevó la vida de 3 de los miembros de la banda en 1977.

A nivel teórico, Sweet Home Alabama es una canción en la tonalidad de Sol que sigue la famosa progresión I IV V: Sol es el primer acordes, Re es el cuarto y Do es el quinto.

En cierto momento de la canción aparece el acorde de Fa, el cual realmente no está en la armonización de la escala de sol mayor, de ahí el toque original que aporta a la composición.

Sergio JC
Últimas entradas de Sergio JC (ver todo)

¿Quieres Mejorar con tu Guitarra?

Suscríbete a mi Newsletter y recibe contenido semanal GRATIS

Invalid email address
Configuración