Smells Like Teen Spirit

En este post te dejo una review sobre Smells Like Teen Spirit de Nirvana y la tablatura de la canción con su letra.

Smells Like Teen Spirit Acordes + Letra  

smells like teen spirit acordes

[Intro]

 

(Limpio)

 

F5 Bb5 Ab5 Db5   F5 Bb5 Ab5 Db5

 

(Distorsión)

 

F5 Bb5 Ab5 Db5   F5 Bb5 Ab5 Db5

F5 Bb5 Ab5 Db5   F5 Bb5 Ab5 Db5

 

[Verso 1]

 

* Al principio de cada estrofa hace lo siguiente

e|----1-----------------|
B|-1--------------------|
G|----------------------|
D|----------------------|
A|----------------------|
E|----------------------|

*

Load up on guns, bring your friends

*

It’s fun to lose, and to pretend

*

She’s over-bored, and self-assured

*

Oh, no, I know, a dirty word

 

[Pre-estribillo]

 

* Al principio de cada estrofa hace lo siguiente

e|---1-----1-----1-----1|
B|-1-----1-----1-----1--|
G|----------------------|
D|----------------------|
A|----------------------|
E|----------------------|

 

*

Hello, hello, hello, how low

*

Hello, hello, hello, how low

*

Hello, hello, hello, how low

*

Hello, hello, hello

 

[Estribillo]

    

                  F5

With the lights out

Bb5         Ab5

It’s less dangerous

Db5       F5

Here we are now

Bb5         Ab5

Entertain us

Db5       F5

I feel stupid

Bb5         Ab5

And contagious

Db5       F5

Here we are now

Bb5         Ab5

Entertain us

Db5       F5

A mulatto

Bb5         Ab5

An albino

Db5       F5

A mosquito

Bb5         Ab5

My libido

Db5

Yeah!

F5 E5   F5 Gb5         F5   E5 F5 Bb5 Ab5

                              Hey!

F5 E5   F5 Gb5         F5 E5   F5 Bb5 Ab5

                              Hey!

 

[Verso 2]

 

* Al principio de cada estrofa hace lo siguiente

e|----1-----------------|
B|-1--------------------|
G|----------------------|
D|----------------------|
A|----------------------|
E|----------------------|

 

*

I’m worse, at what I do best

*

And for this gift, I feel blessed

*

Our little group, has always been

*

And always will, until the end

  

[Pre-estribillo]

* Al principio de cada estrofa hace lo siguiente

e|---1-----1-----1-----1|
B|-1-----1-----1-----1--|
G|----------------------|
D|----------------------|
A|----------------------|
E|----------------------|

 

*

Hello, hello, hello, how low

*

Hello, hello, hello, how low

*

Hello, hello, hello, how low

*

Hello, hello, hello

 

[Estribillo]

 

                  F5

With the lights out

Bb5         Ab5

It’s less dangerous

Db5       F5

Here we are now

Bb5         Ab5

Entertain us

Db5       F5

I feel stupid

Bb5         Ab5

And contagious

Db5       F5

Here we are now

Bb5         Ab5

Entertain us

Db5       F5

A mulatto

Bb5         Ab5

An albino

Db5       F5

A mosquito

Bb5         Ab5

My libido

Db5

Yeah!

F5 E5   F5 Gb5         F5 E5   F5 Bb5 Ab5

                              Hey!

F5 E5 F5   Gb5         F5 E5 F5   Bb5 Ab5

                              Hey!

 

[Solo]

e|----------------------|----------------------|----------------------|----------------------|
B|----------------------|----------------------|----------------------|----------------------|
G|-------8--10----------|--8--8b10---8--6---5--|--6----5--------------|----------------------|
D|---10------------6----|----------------------|------------8--6------|--8--8b10--6----5-----|
A|----------------------|----------------------|----------------------|----------------------|
E|----------------------|----------------------|----------------------|----------------------|

e|----------------------|----------------------|----------------------|----------------------|
B|----------------------|----------------------|----------------------|----------------------|
G|-------8--10----------|--8--8b10---8--6---5--|--6----5--------------|----------------------|
D|---10------------6----|----------------------|------------8--6------|--8--8b10--6----5-----|
A|----------------------|----------------------|----------------------|----------------------|
E|----------------------|----------------------|----------------------|----------------------|

e|----------------------|----------------------|----------------------|----------------------|
B|----------------------|----------------------|----------------------|----------------------|
G|----------------------|----------------------|----------------------|----------------------|
D|---6--5-----6--5------|---6—5-----6--5--5----|---6--5-----6--5------|---6—5-----6--5—5-----|
A|----------------------|-------------------8--|----------------------|------------------8~~~|
E|----------------------|----------------------|----------------------|----------------------|

e|----------------------|----------------------|----------------------|----------------------|
B|----------------------|----------------------|----------------------|----------------------|
G|----------------------|----------------------|----------------------|----------------------|
D|---6--5-----6--5------|---6—5-----6--5--5----|---6--5-----6--5------|---6—5-----6--5—5-----|
A|----------------------|-------------------8--|----------------------|------------------8~~~|
E|----------------------|----------------------|----------------------|----------------------| 

[Verso 3]

 

* Al principio de cada estrofa hace lo siguiente

e|----1-----------------|
B|-1--------------------|
G|----------------------|
D|----------------------|
A|----------------------|
E|----------------------|

 

*

And I forget, just why I taste

*

Oh yeah, I guess, it makes me smile

*

I found it hard, it’s hard to find

*

Well, whatever, nevermind

 

[Pre-estribillo]

 

* Al principio de cada estrofa hace lo siguiente

e|---1-----1-----1-----1|
B|-1-----1-----1-----1--|
G|----------------------|
D|----------------------|
A|----------------------|
E|----------------------|

*

Hello, hello, hello, how low

*

Hello, hello, hello, how low

*

Hello, hello, hello, how low

*

Hello, hello, hello

  

[Estribillo]

 

                  F5

With the lights out

Bb5         Ab5

It’s less dangerous

Db5       F5

Here we are now

Bb5         Ab5

Entertain us

Db5       F5

I feel stupid

Bb5         Ab5

And contagious

Db5       F5

Here we are now

Bb5         Ab5

Entertain us

Db5       F5

A mulatto

Bb5         Ab5

An albino

Db5       F5

A mosquito

Bb5         Ab5

My libido

Db5       F5

     A   denial

Bb5         Ab5

     A denial

Db5       F5

     A denial

Bb5         Ab5

     A denial

Db5       F5

     A denial

Bb5         Ab5

     A denial

Db5       F5

     A denial

Bb5         Ab5

     A denial

Db5       F5

     A denial

 

Smells Like Teen Spirit TAB + Letra

Tablatura Smells Like Teen Spirit

Sobre la canción

Smells Like Teen Spirit es una canción compuesta por el grupo Nirvana, que fue lanzada como single de su segundo disco, Nervermind, en 1991.

La canción fue compuesta inicialmente por Kurt Cobain. Y en ella Kurt plasma su disgusto con la apatía de su generación y su rechazo a lo mainstream, tal y como su compañero Krist Novoselic reconoció posteriormente:

Kurt realmente despreciaba lo mainstream. De eso se trataba ‘Smells Like Teen Spirit’: la mentalidad de la mayoría por el conformismo.

Al presentar la canción a sus compañeros Krist Novoselic la descartó por ridícula, lo cual no le hizo gracia a Kurt Cobain y obligó a la banda practicarla durante horas y horas. Horas en las que fueron haciendo una serie de arreglos que la acercaron a la canción que todos conocemos.

El trabajo de todo el grupo en la canción hizo que Smells Like Teen Spirit fuera la única canción de Nevermind compuesta por los 3 miembros de la banda. A esto se debe unir también el trabajo del productor Butch Vig, que incluyó una serie de cambios, principalmente en el estribillo.

En cuanto al nombre de la canción, éste tiene origen en Kathleen Haana, cantante del grupo Bikini Kill. Kathleen, tras una larga noche de borrachera entre bandas, escribió en la pared del hotel en el que se alojaban la frase Kurt Smells Like Teen Spirit (Kurt huele a Teen Spirit).

Esta frase era en referencia al desodorante con nombre Teen Spirit que usaba la novia por entonces de Kurt Cobain. No obstante Cobain interpretó esta frase como un slogan con significado revolucionario, pues él y Kathleen Haana solían hablar sobre anarquismo y punk.

Tiempo después, al descubrir el verdadero significado de las palabras de Haana, se sintió bastante molesto y humillado.

En cuanto al estilo de la canción, se podría decir que es una canción de cambios fuertes, como indicaba el propio Kurt Cobain. Durante los versos es lenta con una guitarra usando el efecto chorus, mientras que en el estribillo es fuerte y ruidosa.

En 1994 Kurt Cobain admitió en una entrevista a Rolling Stones que Smells Like Teen Spirit sigue el estilo de The Pixies, grupo por el que sentía especial admiración:

Estaba tratando de escribir la mejor canción pop. Básicamente estaba tratando de copiar a los Pixies. Tengo que admitirlo (entre risas). Cuando escuché a los Pixies por primera vez, conecté tan fuertemente con la banda que creí que debería pertenecer al grupo, o al menos a una banda que versionara a Pixies. Usamos su sentido de la dinámica, siendo suaves y silenciosos y luego fuertes y duros’.

El solo básicamente repite la melodía vocal que Cobain canta durante los versos, y está considera uno de los mejores solos de la historia del rock por guitarwold.

Un elemento clave para que Smeels Like Teen Spirit se convirtiera en un hit fue el vídeo, como el propio Dave Grohl comentó en la revista Mojo:

La gente escuchaba la canción en la radio y pensaban que estaba bien pero cuando vieron el vídeo en MTV pensaron: ‘Esto es la hostia. Estos tipos feos están destrozando su puto instituto’.

Smells Likes Teen Spirit fue el mayor hit de Nirvana, alcanzado posiciones altas en las listas de canciones de países como Estados Unidos, España, Bélgica o Francia. No obstante, con el tiempo fue el propio grupo el que se mostró cansado de toda la atención que recibían por la canción. Tanto fue así, que en sus últimos conciertos dejaron de tocarla con la intención de espantar aquellas personas que iban a verlos sólo por esta canción.

Estructura de Smells Like Teen Spirit

Smells Like Teen Spirit es una canción en Fa, compuesta básicamente por 4 acordes de quintas, F – B♭ – A♭ – D♭, y sigue la progresión i – iv♭ – III♭ – VI. 

Teóricamente esta sucesión de acordes encaja perfectamente en la escala menor natural de Fa: 

Progresión de acordes Smells Like Teen Spirit

Pero, ¿a qué se debe esta progresión?, pues ni más ni menos que a un juego de cuartas que ideó Kurt Cobain: B♭ es el cuarto grado de F y D♭ es el cuarto de A♭. Esto se ve muy claro, en el círculo de quintas o cuartas:

circulo de quintas - Smells Like Teen Spirit

De igual forma, el sólo se apoya sobre los patrones 3 y 4 de la escala menor natural de Fa:

escala menor tab Smells Like Teen Spirit

En verde las notas tocadas

Si te ha gustado el análisis de esta canción de Nirvana, échale un vistazo a About a Girl, tiene tanto acordes de quinta como acordes abiertos.

Recibe la lección en PDF

Suscríbete a la Newsletter y recibe esta lección y ¡mucho más!

Invalid email address
Esto no es SPAM, solo recibirás el pdf
Smells Like Teen Spirit

2 pensamientos en “Smells Like Teen Spirit

  1. Muchas gracias por enviarme tan pronto lo que les solicite , soy principiante con la guitarra eléctrica ,espero poder tocar este tema y muchos más!
    Gracias y saludos.

Deja una respuesta

Tu dirección de correo electrónico no será publicada. Los campos obligatorios están marcados con *

Información básica sobre protección de datos Ver más

  • Responsable Sergio Jimenez Canales .
  • Finalidad Moderar los comentarios. Responder las consultas.
  • Legitimación Tu consentimiento.
  • Destinatarios Sergio Jimenez Canales.
  • Derechos Acceder, rectificar y suprimir los datos.
  • Información Adicional Puedes consultar la información detallada en la Política de Privacidad.

Scroll hacia arriba
Esta web utiliza cookies, puedes ver aquí la Política de Cookies

F5

Bb5

ab5

Db5

F5

Bb5

ab5

Db5

F5

Bb5

ab5

Db5

F5

Bb5

ab5

Db5

F5

Bb5

ab5

Db5

F5

Bb5

ab5

Db5

F5

Bb5

ab5

Db5

F5

Bb5

ab5

Db5

F5

Bb5

ab5

Db5

F5

Bb5

ab5

Db5

F5

Bb5

ab5

Db5

F5

Bb5

ab5

Db5

F5

E5

F5

Gb5

F5

E5

F5

Bb5

ab5

F5

E5

F5

Gb5

F5

E5

F5

Bb5

ab5

F5

Bb5

ab5

Db5

F5

Bb5

ab5

Db5

F5

Bb5

ab5

Db5

F5

Bb5

ab5

Db5

F5

Bb5

ab5