Seven Nation Army

En este post te dejo una review sobre Seven Nation Army de The White Strypes y la tablatura de la canción con su letra.

Seven Nation Army + TAB

[Intro]

Riff 1
e|------------------|
B|------------------|
G|------------------| x4
D|------------------|
A|-7--7-10-7-5-3--2-|
E|------------------|

[Verso 1]

                   Riff 1

I’m gonna fight em’ off

                              Riff 1

A seven nation army couldn’t hold me back

                            Riff 1

They’re gonna rip it off

                         Riff 1

Taking their time right behind my back

                Riff 1                                                                              Riff 1

And I’m talking to myself at night because I can’t forget

Riff 1                                                                                Riff 1

Back and forth through my mind behind a cigarette

                Riff 2   

And a message coming from my eyes, says leave it alone

Riff 2
e|----------------------------------------|
B|----------------------------------------|
G|----------------------------------------|
D|----------------------------------------|
A|-5-5-5-5-5-5-5-5-7-7-7-7-7-7-7-7--------|
E|-3-3-3-3-3-3-3-3-5-5-5-5-5-5-5-5--------|

[Estribillo]

Riff 3
E|----------------------------------------|
B|----------------------------------------|
G|-9--9-12-9-7-5-4~---9--9-12-9-7-5\7/5-4-| x4
D|-9--9-12-9-7-5-4~---9--9-12-9-7-5\7/5-4-|
A|-7--7-10-7-5-3-2~---7--7-10-7-5-3\5/3-2-|
E|----------------------------------------|

Riff 2
e|----------------------------------------|
B|----------------------------------------|
G|----------------------------------------|
D|----------------------------------------|
A|-5-5-5-5-5-5-5-5-7-7-7-7-7-7-7-7--------|
E|-3-3-3-3-3-3-3-3-5-5-5-5-5-5-5-5--------|

Riff 1
e|----------------------------------------|
B|----------------------------------------|
G|----------------------------------------| x4
D|----------------------------------------|
A|-7--7-10-7-5-3--2-----------------------|
E|----------------------------------------|

[Verso 2]

                         Riff 1

Don’t wanna hear about it

                        Riff 1

Every single one’s got a story to tell

                   Riff 1

Everyone knows about it

                                     Riff 1

From the queen of England to the hounds of hell

             Riff 1                                                                                       Riff 1

And if I catch you comin’ back my way, I’m gonna serve it to you

                 Riff 1                                                                                   Riff 1

And that ain’t what you want to hear, but that’s what I’ll do

                Riff 2   

And a feeling coming’ from my bones, says find a home

 

[Estribillo + solo]

e|-------------------------------------------------------|
B|-5--5-8-5-5-8--7--5--5-8-8/10-8-8/10-8-7---------------|
G|-------------------------------------------------------|
D|-------------------------------------------------------|
A|-------------------------------------------------------|
E|-------------------------------------------------------|

e|-12-12/14-12-12-15b-14---12-12-15-17-15-15-15/17-15-14-|
B|-------------------------------------------------------|
G|-------------------------------------------------------|
D|-------------------------------------------------------|
A|-------------------------------------------------------|
E|-------------------------------------------------------|

e|-12-12/14-12-12-15b-15--12-12/14-12-12/14-12-----------|
B|---------------------------------------------13-12-----|
G|-------------------------------------------------------|
D|-------------------------------------------------------|
A|-------------------------------------------------------|
E|-------------------------------------------------------|

e|-3-3-3-3-3-3-3-3-5-5-5-5-5-5-5-5-----------------------|
B|-------------------------------------------------------|
G|-------------------------------------------------------|
D|-------------------------------------------------------|
A|-------------------------------------------------------|
E|-------------------------------------------------------|

Riff 1

e|----------------------------------------|
B|----------------------------------------|
G|----------------------------------------| x4
D|----------------------------------------|
A|-7--7-10-7-5-3--2-----------------------|
E|----------------------------------------|

[Verso 3]

           Riff 1

I’m going to Wichita

              Riff 1

Far from this opera forevermore

                       Riff 1

I’m gonna work the straw

               Riff 1

Make the sweat drip out of every pore

        Riff 1                                                                                                             Riff 1

And I’m bleedin’ and I’m bleedin’ and I’m bleedin’ right before my  lord

        Riff 1                                                                                                    Riff 1

All the words are gonna bleed from me, and I will sing no more

                Riff 2   

And the stains coming from my blood tell me «go back home»

 

[Estribillo]

Riff 3
E|----------------------------------------|
B|----------------------------------------|
G|-9--9-12-9-7-5-4~---9--9-12-9-7-5\7/5-4-| x4
D|-9--9-12-9-7-5-4~---9--9-12-9-7-5\7/5-4-|
A|-7--7-10-7-5-3-2~---7--7-10-7-5-3\5/3-2-|
E|----------------------------------------|

Riff 2
e|----------------------------------------|
B|----------------------------------------|
G|----------------------------------------|
D|----------------------------------------|
A|-5-5-5-5-5-5-5-5-7-7-7-7-7-7-7-7--------|
E|-3-3-3-3-3-3-3-3-5-5-5-5-5-5-5-5--------|

Riff 1
e|----------------------------------------|
B|----------------------------------------|
G|----------------------------------------| x4
D|----------------------------------------|
A|-7--7-10-7-5-3--2-----------------------|
E|----------------------------------------|

e|--------------|
B|--------------|
G|------9~~~~---|
D|------9~~~~---|
A|--0---7~~~~---|
E|--------------|

Sobre la canción

Seven Nation Army es una canción del grupo The White Strypes publicada el 7 de Marzo de 2003 dentro del álbum Elephant.

El título de la canción tiene origen en el Ejército de Salvación (Salvation Army), una fundación no gubernamental creada originalmente con la idea de llevar el cristianismo a las personas más desfavorecidas. No obstante, lo que Jack White de niño creía oír al hablar de dicha asociación era Seven Nation Army, lo cual se le quedó grabado.

Así pues, he ahí el caso de otra gran canción cuyo titulo tiene su origen en un malentendido, (como también ocurrió en Smells Like Teen Spirit).

Seven Nation Army es una canción en la que White relata la historia de una persona que vuelve a su ciudad original para descubrir que todos sus amigos no hacen más que cotillear o hablar de él a sus espaldas. Por ello, decide marcharse aunque acaba volviendo.

«He feels so bad he has to leave town, but you get so lonely you come back…»

Realmente la letra hace mención tanto a Jack White como Meg. Y es que, por aquella época eran demasiados los rumores y cuchicheos que existían en la prensa amarilla sobre los miembros de The White Strypes y su vida personal.

Riff de Seven Nation Army

El famoso riff de guitarra de Seven Nation Army tiene su origen en una prueba de sonido realizada por Jack White antes de tocar en Australia. Al ser una melodía sin letra originalmente White decidió ponerle el nombre de Seven Nation Army ya que seven (siete) son las notas que lo componen, y esto le ayudaba a recordarla.

El sonido grave de este lick, sorprende a muchos ya que, como todos sabemos, The White Strypes fue un grupo formado por dos miembros únicamente: Jack White a la guitarra y Meg a la batería (al igual que sus archienemigos The Black Keys).

¿Cómo consigue Jack White este sonido propio de bajo? gracias a un pedal que hace sonar su guitarra una octava más grave.

Por otro lado, y en cuanto al sonido característico de Jack White, este lo consigue gracias al pedal Big Muff Pi, un stombox de Fuzz mítico en el mundo de la distorsión.

Curiosamente, Jack White pensó al componer este icónico riff que sería el que usase en el que hipotético caso de que le pidieran escribir la banda sonora para una película de James Bond. No obstante, esto le pareció bastante improbable y lo terminó publicando en la canción Seven Nation Army…

…Casualidades de la vida, cinco años más tarde a Jack White le ofrecieron escribir la canción que sería banda sonora de Quantum of Solace de James Bond. Dado que Seven Nation Army ya había sido usada, compuso Another Way to Die, la cual interpreta con Alicia Keys.

Grabación

En cuanto a la grabación del single, y al igual que todo el álbum de Elephant, éste se grabó en los estudios de Toe Rag de Londres, famosos por usar solo tecnología analógica y anterior a 1960. Y es que, Jack White jura que no existen ni un solo ordenador en la edición de esta canción.

Éxito y versiones

El éxito de Seven Nation Army es innegable, pues la hemos escuchado en bares, pubs, discotecas, anuncios, estadios de futbol, sueños y hasta pesadillas. Nadie ha conseguido escapar de ella.

Y de igual forma, son muchos los grupos que han decidido versionarla o rendirle tributo, destancando bandas del nivel de Audioslave, The Hives o Metallica.

No obstante, y para sorpresa de muchos, Seven Nation Army casi no fue el single del disco Elephant pues ni en Estados Unidos ni en el Reino Unido le daban el crédito que acabaría teniendo.

Finalmente, y gracias al empeño de Jack White, Seven Nation Army consiguió ser publicada como el single oficial de Elephant, y el tiempo le dio la razón ya que esta canción alcanzó puestos bastante altos tanto en las listas de USA como de Europa y consiguió el grammy a mejor canción de rock del año 2004.

Analisis de la canción

Seven Nation Army es una canción en Sol mayor. Esto se ve de forma clara si analizamos el riff inicial, pues veremos como cada nota se encuentra dentro de la escala mayor de Sol (G – A – B – C – D – E – F#):

 E  E  G E D C  B 
|-7--7-10-7-5-3--2-|

De igual forma, la melodía del estribillo no es más que este mismo riff armonizado por quintas:

E|----------------------------------------|
B|----------------------------------------|
G|-9--9-12-9-7-5-4~---9--9-12-9-7-5\7/5-4-|
D|-9--9-12-9-7-5-4~---9--9-12-9-7-5\7/5-4-|
A|-7--7-10-7-5-3-2~---7--7-10-7-5-3\5/3-2-|
E|----------------------------------------|

Por otro lado, el solo es bastante simple y viene a repetir en gran parte la estructura del riff inicial. Primero lo toca en la cuerda 2 de los patrones 1 y 2, y después lo repite una octava más aguda en la cuerda 1 de los patrones 5 y 6.

Seven Nation Army tablatura guitarra tab

En verde las notas tocadas

Seven Nation Army

Recibe la lección en PDF

Suscríbete a la Newsletter y recibe esta lección y ¡mucho más!

Invalid email address
Esto no es SPAM, solo recibirás el pdf

Deja una respuesta

Tu dirección de correo electrónico no será publicada. Los campos obligatorios están marcados con *

Información básica sobre protección de datos Ver más

  • Responsable Sergio Jimenez Canales.
  • Finalidad Moderar los comentarios. Responder las consultas.
  • Legitimación Tu consentimiento.
  • Destinatarios  Sergio Jimenez Canales.
  • Derechos Acceder, rectificar y suprimir los datos.
  • Información Adicional Puedes consultar la información detallada en la Política de Privacidad.

Scroll hacia arriba
Esta web utiliza cookies propias y de terceros para su correcto funcionamiento y para fines analíticos y para fines de afiliación y para mostrarte publicidad relacionada con tus preferencias en base a un perfil elaborado a partir de tus hábitos de navegación. Al hacer clic en el botón Aceptar, aceptas el uso de estas tecnologías y el procesamiento de tus datos para estos propósitos.Ver Política de cookies
Privacidad