Proud Mary

En este post te dejo una review sobre Proud Mary y los acordes de la canción con su letra.

Proud Mary Acordes + Letra

Proud Mary Acordes

[Intro]

C  A  C  A
C  A  G  F
D

[Verso 1]

 D
Left a good job in the city
    D
Working for The Man every night and day
D
And I never lost one minute of sleeping
    D
Worrying ‘bout the way things might have been

[Pre estribillo]

 A
Big wheel keep on turning
  Bm                                                *
Proud Mary keep on burning

* Después de Bm hace lo siguiente
e|----------------------|
B|----------------------|
G|----------------------|
D|-----5--7--9--7/9/9-|
A|-----5--7--9--7/9/9-|
E|-5h7------------------|

[Estribillo]

 D                                                         *
Rolling, rolling, rolling on the river

* Después de D hace lo siguiente

e|---------------------|
B|-5/7--7--5-3-3h5~--3-|
G|---------------------|
D|-5/7-----5-4-4h5~--4-|
A|---------------------|
E|---------------------|

[Verso 2]

  D
Cleaned a lot of plates in Memphis
  D
Pumped a lot of pain down in New Orleans
  D
But I never saw the good side of the city
     D
Until I hitched a ride on a river boat queen

[Pre estribillo]

 A
Big wheel keep on turning
  Bm                                            *
Proud Mary keep on burning

* Después de Bm hace lo siguiente

e|-----------------|
B|-----3-5-5/7/7-|
G|-2h4-------------|
D|---------5/7/7-|
A|-----------------|
E|-----------------|

[Estribillo]

 D                                                               *
Rolling, rolling, rolling on the river

* Después de D hace lo siguiente

e|---------------------|
B|-5/7--7--5-3-3h5~--3-|
G|---------------------|
D|-5/7-----5-4-4h5~--4-|
A|---------------------|
E|---------------------|

[Intro]

C  A  C  A
C  A  G  F
D

[Solo]

e|---------------------------------------------------|
B|-----------------7--7--7h8-7-7h8-7-7h8-7-7h8-7-7h8-|
G|-----------------7--7--7---7-----7-----7-----7-----|
D|---7--7h9-7--7h9-7--7--7h9-7-7h9-7-7h9-7-7h9-7-7h9-|
A|-9-------------------------------------------------|
E|---------------------------------------------------|

e|---------------------------------------------------|
B|-7~---------8/10-10-10p7-------------------------|
G|-7~--7---7--9/11-11-11p7-------------------------|
D|-7~--7---7-----------------9-7---------------------|
A|-------9-------------------------------------------|
E|---------------------------------------------------|

e|---------------------------------------------------|
B|-----7h8-7-7h8-7-7h8-7-7h8-7-7h8-------------------|
G|-----7---7-----7-----7-----7-----------------------|
D|---7-7h9-7-7h9-7-7h9-7-7h9-7-7h9-------------------|
A|-9-------------------------------------------------|
E|---------------------------------------------------|

e|---------------------------------------------------|
B|---------------------------------------------------|
G|---------------------------------------------------|
D|-7--7--7--7--7-------------------------------------|
A|-9--9--9--9--9-------------------------------------|
E|---------------------------------------------------|

e|---------------------------------------------------|
B|---------------------------------------------------|
G|---------6--6-7--6--6----6~------------------------|
D|-7--7-9---------------9----------------------------|
A|---------------------------------------------------|
E|---------------------------------------------------|

e|---------------------------------------------------|
B|---------------------------------------------------|
G|------6--7--7-9--7--7-6--7~------------------------|
D|-9--9----------------------------------------------|
A|---------------------------------------------------|
E|---------------------------------------------------|

[Estribillo]

                                                               *
Rolling, rolling, rolling on the river

* Después de D hace lo siguiente

e|---------------------|
B|-5/7--7--5-3-3h5~--3-|
G|---------------------|
D|-5/7-----5-4-4h5~--4-|
A|---------------------|
E|---------------------|

[Intro]

C  A  C  A
C  A  G  F
D

[Verso 3]

D
If you come down to the river
D
Bet you gonna find some people who live
D
You don’t have to worry ‘cause you have no money
D
People on the river are happy to give

[Pre estribillo]

 A
Big wheel keep on turning
  Bm                                       *
Proud Mary keep on burning

* Después de Bm hace lo siguiente

e|----------------------|
B|----------------------|
G|----------------------|
D|-----5--7--9--7/9/9-|
A|-----5--7--9--7/9/9-|
E|-5h7------------------|

[Estribillo]

 D                                                               *
Rolling, rolling, rolling on the river
D                                                               *
Rolling, rolling, rolling on the river
                                                              *
Rolling, rolling, rolling on the river
D                                                               *
Rolling, rolling, rolling on the river 

* Después de D hace lo siguiente

e|---------------------|
B|-5/7--7--5-3-3h5~--3-|
G|---------------------|
D|-5/7-----5-4-4h5~--4-|
A|---------------------|
E|---------------------|

Sobre la canción

Creedence Clearwater Revival ha sido uno de los grupos más existosos y que más hits ha cosechado entre finales de los 60 y los 70. De entre todos ellos Proud Mary es para muchos el mejor de la banda, y lo cierto es que fue clave ya que se convirtió la canción más famosa que el grupo había hecho hasta el momento, alcanzando el puesto 2 en Marzo de 1969.

La canción fue lanzada en Enero de 1969 dentro del élbum Bayou Country junto a otras grandes canciones como Born on the Bayou. Lo que hace diferente a Proud Mary es que es una canción que roza varios estilos: blues, country, rockabilly, gospel, soul y, por supuesto, el swamp rock que tanto definió a la banda. Y es que, aunque la banda es de El Cerrito (California), mucha gente pensaba que eran de Nueva Orleans o algún estado sureño por su estilo y letras.

Por aquella época John Fogerty tenía 23 años y formaba parte de la unidad de Reservar de la armada de Estado Unidos, muy a su pesar. Un día, al llegar a su casa Fogerty vio una carta de la misma Armada en la que le comunicaban que le daban de baja. Éste, emocionado y dando saltos de alegría, cogió la guitarra y en un golpe de creatividad empezó a cantar estrofas como ‘Left a good job in the city’, ‘Big wheel keep on turnin’/Proud Mary keep on burnin’ y ‘Rolling, rolling, rolling on the river’ .Fue ese el momento en el que John se dio cuenta que estaba creando la que podía ser su mejor canción.

Al principio, Proud Mary estaba basada en una mujer del sur de estados unidos que trabaja de sirvienta, como muestran las frases «She gets off the bus every morning and goes to work and holds their lives together,» y «Then she has to go home.» Fue Stu Cook quien propuso la idea de que la canción fuera sobre un barco (riverboat), lo cual a John le pareció bien, pues según el propio John las letras encajaban dentro del estilo marítimo que tenía en mente. Por ello, Proud Mary pasó de criada a convertirse en un barco, más concrétamente un barco a vapor.

Proud Mary ha sido versionada por artistas como Elvis Presley o el propio Leonard Nimoy (esta versión mejor no escucharla) aunque la versión más famosa fue la de Tina Turner, grabada en 1993. Cuando John Fogerty vió por primera vez esta última versión quedó maravillado con ella, pues no era la misma canción tocada por otra persona sino algo nuevo, con un toque más gospel y soul pero manteniendo la esencia. De hecho según Fogerty su cara fue la misma que cuando Shrek y Asno ven por primera vez en la máquina arcade en el castillo de Lord Farquard.

Shrek and Donkey face

Estructura de la canción

La canción empieza con un riff que se mantiene a lo largo de toda la canción, lo cual es algo muy característico de la banda (como se puede apreciar en la canción Bad Moon Rising). Este riff basado en dos acordes, Do y La (C-A) y tiene una pequeña variación justo antes de caer en Re (D), la tonalidad de la canción. Por contra, es el acorde de Re el que suena durante todos los versos.

En cuanto al solo, está basado en la escala mayor de Re y fue creado bajo la influencia de Cropper of Booker T. & the MGs, como el propio Fogerty ha reconocido. Todo el sólo está basado en la quinta posición (y una pequeña parte de la sexta), del que usa las notas marcadas en verde. En la parte de final se ve perfectamente cómo toca sobre esta quinta posición, pasando por las notas A – B – C# – E, y resolviendo sobre la tónica, Re (D).

escala mayor Proud Mary

En verde las notas tocadas

Recibe la lección en PDF

Suscríbete a la Newsletter y recibe esta lección y ¡mucho más!

Invalid email address
Esto no es SPAM, solo recibirás el pdf
Proud Mary

Deja una respuesta

Tu dirección de correo electrónico no será publicada. Los campos obligatorios están marcados con *

Información básica sobre protección de datos Ver más

  • Responsable Sergio Jimenez Canales .
  • Finalidad Moderar los comentarios. Responder las consultas.
  • Legitimación Tu consentimiento.
  • Destinatarios Sergio Jimenez Canales.
  • Derechos Acceder, rectificar y suprimir los datos.
  • Información Adicional Puedes consultar la información detallada en la Política de Privacidad.

Scroll hacia arriba
Esta web utiliza cookies, puedes ver aquí la Política de Cookies