Saltar al contenido

Island in the Sun: acordes

En este post vamos a ver los acordes y cómo tocar Island In The Sun. ¡No te vayas sin leer la review y el análisis de la canción!

Island In The Sun Acordes y TAB

Los acordes de Island in the Sun son:

island in the sun acordes

[Intro]

   Em/B    Am/C
E|-3--3----5--5--5--|
B|-5--5----5--5--5--|
G|-4--4----5--5--5--|
D|------------------|
A|------------------|
E|------------------|
D/A G/B
E|-2--2-2----3--3-3-|
B|-3--3-3----3--3-3-|
G|-2--2-2----4--4-4-|
D|------------------|
A|------------------|
E|------------------|

[Verso 1]

                                
‘         When you are on a holiday
                                         
You can’t find the words to say
                                             
All the things that comes to you
                           
And i wanna feel it too
E|------------------|
B|--8-8-8-8-7-7-8-8-|
G|-9-9-9-9-7-7-7-7--|(4x)
D|------------------|
A|------------------|
E|------------------|

[Estribillo]

                            
On an island in the sun
                                            
We’ll be playing and having fun
                                      
And it makes me feel so fine
                     
I can’t control my brain

[Interludio]

                     
                     

[Verso 2]

                                     
         When you are on a golden sea
                                    
You don’t need no memory
                                     
Just a place to call your own
                             
As we drift into the zone
E|------------------|
B|--8-8-8-8-7-7-8-8-|
G|-9-9-9-9-7-7-7-7--|(4x)
D|------------------|
A|------------------|
E|------------------|

[Estribillo]

                            
On an island in the sun
                                            
We’ll be playing and having fun
                                      
And it makes me feel so fine
                     
I can’t control my brain

[Puente]

                   
 We’ll run away together
                             
 We’ll spend some time forever
                                   
We’ll never feel bad anymore

[Interludio]

                     
                     

[Solo]

E|------------------|
B|------------------|
G|-7-9-7-5-4-5-4-7--|
D|------------------|
A|------------------|
E|------------------|

E|------------------|
B|------------------|
G|------------------|
D|-5-9-7-5-4-5-5----|
A|------------------|
E|------------------|

E|------------------|
B|------------------|
G|-7-9-7-5-4-5-4-7--|
D|------------------|
A|------------------|
E|------------------|

E|------------------|
B|------------------|
G|------------------|
D|-5-9-7-5-4-5-5----|
A|------------------|
E|------------------|

E|------------------|
B|--8-8-8-8-7-7-8-8-|
G|-9-9-9-9-7-7-7-7--|(4x)
D|------------------|
A|------------------|
E|------------------|

[Estribillo]

                            
On an island in the sun
                                            
We’ll be playing and having fun
                                      
And it makes me feel so fine
                     
I can’t control my brain

[Puente]

                   
 We’ll run away together
                             
 We’ll spend some time forever
                                   
We’ll never feel bad anymore
                     
                     
                     
                     
E|------------------|
B|--8-8-8-8-7-7-8-8-|
G|-9-9-9-9-7-7-7-7--|(4x)
D|------------------|
A|------------------|
E|------------------|
 

Review Island In The Sun

Historia de la canción

Island In The Sun es una canción del grupo Californiano Weezer publicada como segundo single del álbum The Green Album (tambien llamado Weezer) en 2001.

Como tocar island In The Sun en guitarra

Para muchos, Island In The Sun es el único éxito cosechado por la banda, y son incluso nombrados en algunos casos One-hit Wonder (banda de un sólo éxito). Pero lo cierto es que el grupo tiene grandes canciones como Buddy Hooly, Say It Ain’t So y mi favorito, Hash Pipe.

Es más, Island In The Sun ocupa el puesto número 8 en la lista de mejores canciones de Weezer hecha por la revista Rolling Stones.

Lo que resulta curioso es que la canción estuvo muy muy cerca de no formar parte del álbum, y fue gracias al productor Ric Ocasek, que luchó todo lo que pudo y más para que fuera incluida.

También sorprende que esta canción tenga dos videoclips. En España el más conocido es el que se ambienta en una boda mejicana, pero lo cierto es que el más famoso (y que pongo arriba) es en el que aparece la banda jugando con varios animales en una pradera.

Análisis de la canción

Island In The Sun es una canción en Sol. La progresión de acordes VI – II – V -I, la cual se llama progresión en círculo de quintas. Lo vemos en detalle porque es bastante interesante.

La progresión es VI – II – V – I (Em – Am – D – G) y se llama progresión en círculo de quintas porque Mi (E) es el 5º grado de La (A), La (A) es el quinto grado de Re (D) y Re (D) es el quinto grado de Sol (G):

progresión en círculo de quintas

El sólo al igual que la progresión de acordes se ubica en la escala mayor (si no sabes cómo funciona una progresión de acordes en la escala mayor échale un ojo a este artículo sobre la armonización de la escala mayor).

De hecho, el sólo es el patrón 1 con parte del 2.

ISLAND IN THE SUN Escala mayor p1-p2

En verde las notas tocadas

Un recurso muy interesante que usan al principio de la canción y que viene bien conocer son las inversiones de acordes, más concretamente las inversiones de tríadas (acordes formados por 3 notas).

inversión triadas Island In The Sun

Si te fijas en las tríadas de abajo verás que:

  • Em/B es la segunda inversión de Em ya que el acorde empieza por el 5º grado (B) en lugar del 1º (Em).
  • Am/C es la primera inversión de Am ya que el acorde empieza por el 3er grado (C) en lugar del 1º (Am).
  • D/A es la segunda inversión de D ya que el acorde empieza por el 5º grado (A) en lugar del 1º (D).
  • G/B es la primera inversión de G ya que el acorde empieza por el 3er grado (B) en lugar del 1º (G).
Sergio JC
Últimas entradas de Sergio JC (ver todo)

¿Quieres Mejorar con tu Guitarra?

Suscríbete a mi Newsletter y recibe contenido semanal GRATIS

Invalid email address
Configuración