Saltar al contenido

Lo/Hi | TAB y Review

En este post te dejo una review sobre Lo/Hi de The Black Keys y la tablatura de la canción con su letra.

Lo/Hi TAB

[Intro]
 
e|------------------------------------|
B|------------------------------------|
G|----------------0--2--0-2--0--5---2-|
D|----------0--2-(0)------------------| x4
A|----0--3----------------------------|
E|-3----------------------------------|
Woo!

[Verso 1]

2 por cada frase
e|--------------------|------------------------| 
B|--------------------|------------------------| 
G|------2------2----2-|-2----2-------7-------5-| 
D|------2------2----2-|-2----2-------7-------5-| 
A|-0----------------0-|-0-------/5-------3-----| 
E|--------------------|------------------------|

Out on a limb in the wind of a hurricane
Down at the bar like a star in the howlin' rain

[Pre-Estribillo]

1 por cada frase
e|--------------------|------------------------| 
B|--------------------|------------------------| 
G|------2------2----2-|-2----2-------7-------5-| 
D|------2------2----2-|-2----2-------7-------5-| 
A|-0----------------0-|-0-------/5-------3-----| 
E|--------------------|------------------------|
Nobody to love you
Nobody to care
If you die, nobody will hug you
No one to answer your prayer

[Estribillo]

1 por cada frase
e|-----------------------|----------------------|
B|-----------------------|----------------------|
G|--7b8r7---5---7---5~~~-|----------------------|
D|-----------------------|-----5---5---5----7---|
A|-----------------------|-----5---5---5----7---|
E|-----------------------|-----3---3---3----5---|
You get low (Low) like a valley
Then high (High) like a bird in the sky
You get low (Low) 'cause you're angry
Low, high, high, low

[Verso 2]
2 por cada frase
e|--------------------|------------------------| 
B|--------------------|------------------------| 
G|------2------2----2-|-2----2-------7-------5-| 
D|------2------2----2-|-2----2-------7-------5-| 
A|-0----------------0-|-0-------/5-------3-----| 
E|--------------------|------------------------|
One at a time, get in line for the masquerade
Drink 'til you cry and you're lyin' in the mess you made

[Pre-Estribillo]

1 por cada frase
e|--------------------|------------------------| 
B|--------------------|------------------------| 
G|------2------2----2-|-2----2-------7-------5-| 
D|------2------2----2-|-2----2-------7-------5-| 
A|-0----------------0-|-0-------/5-------3-----| 
E|--------------------|------------------------|
Nobody to love you
Nobody to care
If you die, nobody will hug you
No one to answer your prayer

[Estribillo]
1 por cada frase
e|-----------------------|---------------------|
B|-----------------------|---------------------|
G|--7b8r7---5---7---5~~~-|---------------------|
D|-----------------------|----5---5---5----7---|
A|-----------------------|----5---5---5----7---|
E|-----------------------|----3---3---3----5---|
You get low (Low) like a valley
Then high (High) like a bird in the sky
You get low (Low) 'cause you're angry
Low, high, high, low
[Solo]
 
e|-----------------------|---------------------|
B|-15b17r15--13--15--13~-|----------------13~~-|
G|-----------------------|-14~~---12--14-------|
D|-----------------------|---------------------|
A|-----------------------|---------------------|
E|-----------------------|---------------------|
 
e|-----------------------|-15b17--15--17--15-----|
B|-15b17r15--13--15--13~-|--------------------17-|
G|-----------------------|-----------------------|
D|-----------------------|-----------------------|
A|-----------------------|-----------------------|
E|-----------------------|-----------------------|
 
e|-----------------------|---------------------|
B|-15b17r15--13--15--13~-|----------------13~~-|
G|-----------------------|-14~~---12--14-------|
D|-----------------------|---------------------|
A|-----------------------|---------------------|
E|-----------------------|---------------------|

e|-----------------------|-15b17---15--15b17---|
B|-15b17r15--13--15--13~-|---------------------|
G|-----------------------|---------------------|
D|-----------------------|---------------------|
A|-----------------------|---------------------|
E|-----------------------|---------------------|

[Interludio]  

e|------------------------------------| 
B|------------------------------------| 
G|----------------0--2--0-2--0--5---2-| 
D|----------0--2-(0)------------------| x4 
A|----0--3----------------------------| 
E|-3----------------------------------|
Woo!

[Estribillo]

1 por cada frase
e|-----------------------|---------------------|
B|-----------------------|---------------------|
G|--7b8r7---5---7---5~~~-|---------------------|
D|-----------------------|----5---5---5----7---|
A|-----------------------|----5---5---5----7---|
E|-----------------------|----3---3---3----5---|
You get low (Low) like a valley
Then high (High) like a bird in the sky
You get low (Low) 'cause you're angry
Low, high, high, low

Lo/Hi (The Black Keys)

Sobre la canción

El 7 de Marzo de 2019 The Black Keys presentaban Lo/Hi, una canción que sería el single de su nuevo disco, Let’s Rock.

lo hi acordes guitarra

Tras 5 años desde su último trabajo juntos existía cierta incertidumbre por saber qué línea The Black Keys iba a proponer para su nuevo álbum, ¿seguirían ese estilo más melancólico aunque comercial que marcaba su anterior disco Turn Blue? ¿o volverían a un estilo más cercano al garage band que en su día tuvieron?

Pues bien, si algo deja claro esta canción es su vuelta a los sonidos más bluseros, con una guitarra tosca acompañada de un Fuzz que nos hace recordar de alguna forma a sus orígenes de garage band de Ohio.

Sin llegar a ser el estilo marcado Thickfreakness es una canción que queda un poco en la línea entre este álbum y Brothers.

Análisis de la canción

La canción empieza con el patrón 4 de la escala pentatónica de La menor tocada entre el traste 0 y el 4 para pasar a una progresión de acordes La – Re – Do (II – V – IV). Cabe destacar que la canción está estructurada en Sol, siendo La el modo dórico.

e|--------------------|------------------------| 
B|--------------------|------------------------| 
G|------2------2----2-|-2----2-------7-------5-| 
D|------2------2----2-|-2----2-------7-------5-| 
A|-0----------------0-|-0-------/5-------3-----| 
E|--------------------|------------------------|

En cuanto al estribillo, es simple pero elegante. Empieza en el patrón 2 de la escala de blues con un bending en Re para llegar a la blue note, en este caso Mib, y lo acaba con un juego entre Do y Re, para terminarlo en Do.

Tras ello, simple otra vez, tres rasgeos en Sol, para acabar en La, la tónica.

chorus

En verde las notas tocadas

A mitad de canción irrumpe con un solo agudo de alto voltaje que vuelve al patrón 4 (y parte del 5) de la escala pentatónica. En cambio, esta vez entre los trastes 12 y 17.

El solo es similar al estribillo pues vuele a hacer un bending en Re para llegar a la blue note, y luego juega con Sol y La, una octava arriba y otra abajo.

solo

En verde las notas tocadas

Si quieres saber más sobre esta canción, en el siguiente link te dejo un estupendo análisis de Chachiguitar sobre la canción de Lo/Hi.

De igual forma, si te ha gustado esta canción te animo a ver Rockin in the free world, de Neil Young, una canción muy divertida y sencilla que puedes aprender a tocar en el mismo día.

Sergio JC
Últimas entradas de Sergio JC (ver todo)

¿Quieres Mejorar con tu Guitarra?

Suscríbete a mi Newsletter y recibe contenido semanal GRATIS

Invalid email address
Configuración