Saltar al contenido

Soldadito Marinero en Guitarra – Aprende a tocar los acordes y el Riff (Fito & Fitipaldis)

En esta lección vamos a aprender a tocar con la guitarra los acordes de Soldadito Marinero de Fito y Fitipaldis, prestando especial atención al rasgueo y al solo que veremos con su TAB correspondiente.

Ya verás que es una canción muy fácil de tocar ya que son solo 4 acordes (Sol Re La y Si menor)y es perfecta para principiantes. Además, este sencillo suena muy bien tanto en guitarra acústica como eléctrica.

soldadito marinero acordes guitarra

Soldadito Marinero Acordes Guitarra

Vamos ya a aprender a tocar soldadito marinero con la guitarra:

[Verso 1]
A                     G                       D
Él camina despacito que las prisas no son buenas
Bm                     D                   A
En su brazo dobladita con cuidado la chaqueta
G                                              D
Luego pasa por las calles donde los chavales juegan
Bm                         A                 D
Él también quiso ser niño pero le pilló la guerra

[Estribillo]
G                                     D
Soldadito marinero conociste a una sirena
Bm                                                A
De esas que dicen “te quiero» si ven la cartera llena
G                                        D
Escogiste a la más guapa y a la menos buena
Bm                        A                   D
Sin saber como ha venido te ha cogido la tormenta

[Interludio]
E|--------------3---------------------------------2p0----0----2-|
B|----------------3-------------------------------3------2----3-|
G|------------0-----0-----------------------------4------2----2-|
D|-2h4-2-0--------------7h9-7----7/\/--2h4-2-0-4------2----0----|
A|----------------------------9---------------------------------|
E|---------3----------------------------------------------------|

[Verso 2]
A                              G             D
Él quería cruzar los mares y olvidar a su sirena
Bm                          D                 A
La verdad no fue difícil cuando conoció a Mariela
G
Que tenía los ojos verdes
                           D
Y un negocio entre las a piernas
Bm                          A                  D
Hay que ver que puntería no te arrimas a una buena

[Estribillo]
G                                     D
Soldadito marinero conociste a una sirena
Bm                                                A
De esas que dicen “te quiero» si ven la cartera llena
G                                        D
Escogiste a la más guapa y a la menos buena
Bm                        A                   D
Sin saber como ha venido te ha cogido la tormenta

[Solo]
E|--------------------------------------------------------------|
B|---------------10--10----------7----------(/12)--------10-9-8-|
G|-11--9\7---------------------7---9--7\6\4--------11-11--------|
D|---------6\5------------7h9-----------------------------------|
A|--------------------------------------------------------------|
E|--------------------------------------------------------------|
E|----------/14-10----------------------------------------------|
B|-------12---------12p10h12p10h12----------------7-------------|
G|-11h12---------------------------10h11-7-----------9--7-------|
D|-----------------------------------------7h9-7----------------|
A|--------------------------------------------------------------|
E|--------------------------------------------------------------|

[Final]
G                             D
   Después de un invierno malo
                   A
   Una mala primavera
                           Bm
   dime por que estás buscando
                       G
   Una lágrima en la arena (x 3)
                           D
   Después de un invierno malo

Review de la canción

Soldadito Marinero es una canción del grupo Fito y Fitipaldis publicada en el año 2003 dentro del álbum Lo Más Lejos A Tu Lado. La canción fue escrita por Adolfo Cabrales Mato, más conocido como Fito, y en ella cuenta la historia de una marinero de avanzada edad que no ha tenido suerte en el amor ya que siempre ha elegido la mujer equivocada.

La canción es para muchos el mayor éxito de la banda vizcaína y la más repoducida en Spotify, con más de 100 millones.

Análisis de la canción

La canción de Soldadito Marinero es una canción en la tonalidad de Re (D) que sigue utiliza los acordes siguientes:

  • Primero (I): Re (D).
  • Cuarto (IV): Sol (G).
  • Quinto (V): La (A).
  • Sexto (vi): Sim (Bm).
soldadito marinero acordes guitarra